twenty one pilots: Nico And The Niners [Rock Guitar Cover] + TAB



Все видео канала SymonIero2018-07-11 19:32

Symon Iero covering "Nico And The Niners" by Twenty one Pilots

Artist: twenty one pilots
Song: Nico And The Niners
Album: Trench
Guitar Cover by; Symon Iero

Facebook:
https://www.facebook.com/SymonIeroOFFICIAL/?skip_nax_wizard=true

Instagram:
https://www.instagram.com/symonierox/

TAB:
Tuning: Standard

INTRO
E|-------
B|-------
G|7------------------------------------------
D|7--7------------------------------------
A|5--7------------------------------------------
E|----5----------------------------------------

VERSE
E|-------
B|-------
G|7------------------------------------------
D|7--7--5---7-------------------------------
A|5--7--5---7-------------------------------------
E|----5--3---5-----------------------------------

RIT.
E|-------
B|-------
G|-----7
D|-3--7--7--5
A|-3--5--7--5
E|-1------5--3

*the solo guitar was improvised